ISO-10303-21;
HEADER;
FILE_DESCRIPTION(('STEP AP214'),'1');
FILE_NAME('cctmp_82AAF432-89E5-4B89-AC37-9344D59BF59C_2020_6_9_10_59_14_212..stp','2020-06-09T08:59:14',('Georg Fischer Piping Systems Ltd.'),('CADClick - www.CADClick.com'),'Spatial InterOp 3D',' ','unknown authorization');
FILE_SCHEMA(('AUTOMOTIVE_DESIGN'));
ENDSEC;
DATA;
#1=MECHANICAL_DESIGN_GEOMETRIC_PRESENTATION_REPRESENTATION(' ',(#10,#11,#12,#13,#14,#15,#16,#17,#18,#19,#20,#21,#22,#23,#24),#6);
#2=PRODUCT_DEFINITION_CONTEXT('',#25,'design');
#3=APPLICATION_PROTOCOL_DEFINITION('INTERNATIONAL STANDARD','automotive_design',1994,#25);
#4=PRODUCT_CATEGORY_RELATIONSHIP('NONE','NONE',#26,#27);
#5=SHAPE_DEFINITION_REPRESENTATION(#28,#29);
#6= (GEOMETRIC_REPRESENTATION_CONTEXT(3)GLOBAL_UNCERTAINTY_ASSIGNED_CONTEXT((#32))GLOBAL_UNIT_ASSIGNED_CONTEXT((#34,#35,#36))REPRESENTATION_CONTEXT('NONE','WORKSPACE'));
#10=STYLED_ITEM('',(#38),#39);
#11=STYLED_ITEM('',(#40),#41);
#12=STYLED_ITEM('',(#42),#43);
#13=STYLED_ITEM('',(#44),#45);
#14=STYLED_ITEM('',(#46),#47);
#15=STYLED_ITEM('',(#48),#49);
#16=STYLED_ITEM('',(#50),#51);
#17=STYLED_ITEM('',(#52),#53);
#18=STYLED_ITEM('',(#54),#55);
#19=STYLED_ITEM('',(#56),#57);
#20=STYLED_ITEM('',(#58),#59);
#21=STYLED_ITEM('',(#60),#61);
#22=STYLED_ITEM('',(#62),#63);
#23=STYLED_ITEM('',(#64),#65);
#24=STYLED_ITEM('',(#66),#67);
#25=APPLICATION_CONTEXT(' ');
#26=PRODUCT_CATEGORY('part','NONE');
#27=PRODUCT_RELATED_PRODUCT_CATEGORY('detail',' ',(#68));
#28=PRODUCT_DEFINITION_SHAPE('NONE','NONE',#69);
#29=ADVANCED_BREP_SHAPE_REPRESENTATION('753000823',(#67,#70),#6);
#32=UNCERTAINTY_MEASURE_WITH_UNIT(LENGTH_MEASURE(1.0E-006),#34,'','');
#34= (CONVERSION_BASED_UNIT('MILLIMETRE',#73)LENGTH_UNIT()NAMED_UNIT(#76));
#35= (NAMED_UNIT(#78)PLANE_ANGLE_UNIT()SI_UNIT($,.RADIAN.));
#36= (NAMED_UNIT(#78)SOLID_ANGLE_UNIT()SI_UNIT($,.STERADIAN.));
#38=PRESENTATION_STYLE_ASSIGNMENT((#84));
#39=ADVANCED_FACE('',(#85),#86,.T.);
#40=PRESENTATION_STYLE_ASSIGNMENT((#87));
#41=ADVANCED_FACE('',(#88),#89,.F.);
#42=PRESENTATION_STYLE_ASSIGNMENT((#90));
#43=ADVANCED_FACE('',(#91),#92,.T.);
#44=PRESENTATION_STYLE_ASSIGNMENT((#93));
#45=ADVANCED_FACE('',(#94),#95,.F.);
#46=PRESENTATION_STYLE_ASSIGNMENT((#96));
#47=ADVANCED_FACE('',(#97),#98,.T.);
#48=PRESENTATION_STYLE_ASSIGNMENT((#99));
#49=ADVANCED_FACE('',(#100),#101,.F.);
#50=PRESENTATION_STYLE_ASSIGNMENT((#102));
#51=ADVANCED_FACE('',(#103),#104,.F.);
#52=PRESENTATION_STYLE_ASSIGNMENT((#105));
#53=ADVANCED_FACE('',(#106),#107,.T.);
#54=PRESENTATION_STYLE_ASSIGNMENT((#108));
#55=ADVANCED_FACE('',(#109,#110),#111,.T.);
#56=PRESENTATION_STYLE_ASSIGNMENT((#112));
#57=ADVANCED_FACE('',(#113),#114,.F.);
#58=PRESENTATION_STYLE_ASSIGNMENT((#115));
#59=ADVANCED_FACE('',(#116),#117,.T.);
#60=PRESENTATION_STYLE_ASSIGNMENT((#118));
#61=ADVANCED_FACE('',(#119),#120,.F.);
#62=PRESENTATION_STYLE_ASSIGNMENT((#121));
#63=ADVANCED_FACE('',(#122),#123,.T.);
#64=PRESENTATION_STYLE_ASSIGNMENT((#124));
#65=ADVANCED_FACE('',(#125,#126),#127,.T.);
#66=PRESENTATION_STYLE_ASSIGNMENT((#128));
#67=MANIFOLD_SOLID_BREP('753000823',#129);
#68=PRODUCT('753000823','','PART--DESC',(#130));
#69=PRODUCT_DEFINITION('','NONE',#131,#2);
#70=AXIS2_PLACEMENT_3D('',#132,#133,#134);
#73=LENGTH_MEASURE_WITH_UNIT(LENGTH_MEASURE(1.0),#135);
#76=DIMENSIONAL_EXPONENTS(1.0,0.0,0.0,0.0,0.0,0.0,0.0);
#78=DIMENSIONAL_EXPONENTS(0.0,0.0,0.0,0.0,0.0,0.0,0.0);
#84=SURFACE_STYLE_USAGE(.BOTH.,#136);
#85=FACE_OUTER_BOUND('',#137,.T.);
#86=TOROIDAL_SURFACE('',#138,315.0,157.5);
#87=SURFACE_STYLE_USAGE(.BOTH.,#139);
#88=FACE_OUTER_BOUND('',#140,.T.);
#89=TOROIDAL_SURFACE('',#141,315.0,138.8);
#90=SURFACE_STYLE_USAGE(.BOTH.,#142);
#91=FACE_OUTER_BOUND('',#143,.T.);
#92=CYLINDRICAL_SURFACE('',#144,157.5);
#93=SURFACE_STYLE_USAGE(.BOTH.,#145);
#94=FACE_OUTER_BOUND('',#146,.T.);
#95=CYLINDRICAL_SURFACE('',#147,138.8);
#96=SURFACE_STYLE_USAGE(.BOTH.,#148);
#97=FACE_OUTER_BOUND('',#149,.T.);
#98=CYLINDRICAL_SURFACE('',#150,157.5);
#99=SURFACE_STYLE_USAGE(.BOTH.,#151);
#100=FACE_OUTER_BOUND('',#152,.T.);
#101=CYLINDRICAL_SURFACE('',#153,138.8);
#102=SURFACE_STYLE_USAGE(.BOTH.,#154);
#103=FACE_OUTER_BOUND('',#155,.T.);
#104=CYLINDRICAL_SURFACE('',#156,138.8);
#105=SURFACE_STYLE_USAGE(.BOTH.,#157);
#106=FACE_OUTER_BOUND('',#158,.T.);
#107=CYLINDRICAL_SURFACE('',#159,157.5);
#108=SURFACE_STYLE_USAGE(.BOTH.,#160);
#109=FACE_BOUND('',#161,.T.);
#110=FACE_OUTER_BOUND('',#162,.T.);
#111=PLANE('',#163);
#112=SURFACE_STYLE_USAGE(.BOTH.,#164);
#113=FACE_OUTER_BOUND('',#165,.T.);
#114=TOROIDAL_SURFACE('',#166,315.0,138.8);
#115=SURFACE_STYLE_USAGE(.BOTH.,#167);
#116=FACE_OUTER_BOUND('',#168,.T.);
#117=TOROIDAL_SURFACE('',#169,315.0,157.5);
#118=SURFACE_STYLE_USAGE(.BOTH.,#170);
#119=FACE_OUTER_BOUND('',#171,.T.);
#120=CYLINDRICAL_SURFACE('',#172,138.8);
#121=SURFACE_STYLE_USAGE(.BOTH.,#173);
#122=FACE_OUTER_BOUND('',#174,.T.);
#123=CYLINDRICAL_SURFACE('',#175,157.5);
#124=SURFACE_STYLE_USAGE(.BOTH.,#176);
#125=FACE_BOUND('',#177,.T.);
#126=FACE_OUTER_BOUND('',#178,.T.);
#127=PLANE('',#179);
#128=SURFACE_STYLE_USAGE(.BOTH.,#180);
#129=CLOSED_SHELL('',(#39,#41,#43,#45,#47,#49,#51,#53,#55,#57,#59,#61,#63,#65));
#130=PRODUCT_CONTEXT('',#25,'mechanical');
#131=PRODUCT_DEFINITION_FORMATION_WITH_SPECIFIED_SOURCE(' ','NONE',#68,.NOT_KNOWN.);
#132=CARTESIAN_POINT('',(0.0,0.0,0.0));
#133=DIRECTION('',(0.0,0.0,1.0));
#134=DIRECTION('',(1.0,0.0,0.0));
#135= (NAMED_UNIT(#76)LENGTH_UNIT()SI_UNIT(.MILLI.,.METRE.));
#136=SURFACE_SIDE_STYLE('',(#182));
#137=EDGE_LOOP('',(#183,#184,#185,#186,#187,#188));
#138=AXIS2_PLACEMENT_3D('',#189,#190,#191);
#139=SURFACE_SIDE_STYLE('',(#192));
#140=EDGE_LOOP('',(#193,#194,#195,#196,#197,#198));
#141=AXIS2_PLACEMENT_3D('',#199,#200,#201);
#142=SURFACE_SIDE_STYLE('',(#202));
#143=EDGE_LOOP('',(#203,#204,#205,#206,#207));
#144=AXIS2_PLACEMENT_3D('',#208,#209,#210);
#145=SURFACE_SIDE_STYLE('',(#211));
#146=EDGE_LOOP('',(#212,#213,#214,#215,#216));
#147=AXIS2_PLACEMENT_3D('',#217,#218,#219);
#148=SURFACE_SIDE_STYLE('',(#220));
#149=EDGE_LOOP('',(#221,#222,#223,#224,#225));
#150=AXIS2_PLACEMENT_3D('',#226,#227,#228);
#151=SURFACE_SIDE_STYLE('',(#229));
#152=EDGE_LOOP('',(#230,#231,#232,#233,#234));
#153=AXIS2_PLACEMENT_3D('',#235,#236,#237);
#154=SURFACE_SIDE_STYLE('',(#238));
#155=EDGE_LOOP('',(#239,#240,#241,#242,#243));
#156=AXIS2_PLACEMENT_3D('',#244,#245,#246);
#157=SURFACE_SIDE_STYLE('',(#247));
#158=EDGE_LOOP('',(#248,#249,#250,#251,#252));
#159=AXIS2_PLACEMENT_3D('',#253,#254,#255);
#160=SURFACE_SIDE_STYLE('',(#256));
#161=EDGE_LOOP('',(#257,#258));
#162=EDGE_LOOP('',(#259,#260));
#163=AXIS2_PLACEMENT_3D('',#261,#262,#263);
#164=SURFACE_SIDE_STYLE('',(#264));
#165=EDGE_LOOP('',(#265,#266,#267,#268,#269,#270));
#166=AXIS2_PLACEMENT_3D('',#271,#272,#273);
#167=SURFACE_SIDE_STYLE('',(#274));
#168=EDGE_LOOP('',(#275,#276,#277,#278,#279,#280));
#169=AXIS2_PLACEMENT_3D('',#281,#282,#283);
#170=SURFACE_SIDE_STYLE('',(#284));
#171=EDGE_LOOP('',(#285,#286,#287,#288,#289));
#172=AXIS2_PLACEMENT_3D('',#290,#291,#292);
#173=SURFACE_SIDE_STYLE('',(#293));
#174=EDGE_LOOP('',(#294,#295,#296,#297,#298));
#175=AXIS2_PLACEMENT_3D('',#299,#300,#301);
#176=SURFACE_SIDE_STYLE('',(#302));
#177=EDGE_LOOP('',(#303,#304));
#178=EDGE_LOOP('',(#305,#306));
#179=AXIS2_PLACEMENT_3D('',#307,#308,#309);
#180=SURFACE_SIDE_STYLE('',(#310));
#182=SURFACE_STYLE_FILL_AREA(#311);
#183=ORIENTED_EDGE('',*,*,#312,.F.);
#184=ORIENTED_EDGE('',*,*,#313,.T.);
#185=ORIENTED_EDGE('',*,*,#314,.T.);
#186=ORIENTED_EDGE('',*,*,#315,.F.);
#187=ORIENTED_EDGE('',*,*,#316,.T.);
#188=ORIENTED_EDGE('',*,*,#317,.T.);
#189=CARTESIAN_POINT('',(1.19360914709543E-013,-315.0,155.0));
#190=DIRECTION('',(1.0,0.0,0.0));
#191=DIRECTION('',(0.0,1.0,0.0));
#192=SURFACE_STYLE_FILL_AREA(#318);
#193=ORIENTED_EDGE('',*,*,#319,.F.);
#194=ORIENTED_EDGE('',*,*,#320,.F.);
#195=ORIENTED_EDGE('',*,*,#321,.F.);
#196=ORIENTED_EDGE('',*,*,#322,.F.);
#197=ORIENTED_EDGE('',*,*,#323,.T.);
#198=ORIENTED_EDGE('',*,*,#324,.T.);
#199=CARTESIAN_POINT('',(-4.60606219047253E-015,-315.0,155.0));
#200=DIRECTION('',(1.0,0.0,0.0));
#201=DIRECTION('',(0.0,1.0,0.0));
#202=SURFACE_STYLE_FILL_AREA(#325);
#203=ORIENTED_EDGE('',*,*,#326,.F.);
#204=ORIENTED_EDGE('',*,*,#327,.F.);
#205=ORIENTED_EDGE('',*,*,#328,.F.);
#206=ORIENTED_EDGE('',*,*,#313,.F.);
#207=ORIENTED_EDGE('',*,*,#329,.F.);
#208=CARTESIAN_POINT('',(0.0,0.0,77.5));
#209=DIRECTION('',(0.0,0.0,1.0));
#210=DIRECTION('',(1.0,0.0,0.0));
#211=SURFACE_STYLE_FILL_AREA(#330);
#212=ORIENTED_EDGE('',*,*,#331,.F.);
#213=ORIENTED_EDGE('',*,*,#332,.F.);
#214=ORIENTED_EDGE('',*,*,#324,.F.);
#215=ORIENTED_EDGE('',*,*,#333,.F.);
#216=ORIENTED_EDGE('',*,*,#334,.F.);
#217=CARTESIAN_POINT('',(0.0,0.0,77.5));
#218=DIRECTION('',(0.0,0.0,1.0));
#219=DIRECTION('',(1.0,0.0,0.0));
#220=SURFACE_STYLE_FILL_AREA(#335);
#221=ORIENTED_EDGE('',*,*,#336,.F.);
#222=ORIENTED_EDGE('',*,*,#337,.F.);
#223=ORIENTED_EDGE('',*,*,#317,.F.);
#224=ORIENTED_EDGE('',*,*,#338,.F.);
#225=ORIENTED_EDGE('',*,*,#339,.F.);
#226=CARTESIAN_POINT('',(0.0,-392.5,470.0));
#227=DIRECTION('',(0.0,-1.0,0.0));
#228=DIRECTION('',(1.0,0.0,0.0));
#229=SURFACE_STYLE_FILL_AREA(#340);
#230=ORIENTED_EDGE('',*,*,#341,.F.);
#231=ORIENTED_EDGE('',*,*,#342,.F.);
#232=ORIENTED_EDGE('',*,*,#343,.F.);
#233=ORIENTED_EDGE('',*,*,#320,.T.);
#234=ORIENTED_EDGE('',*,*,#344,.T.);
#235=CARTESIAN_POINT('',(0.0,-392.5,470.0));
#236=DIRECTION('',(0.0,-1.0,0.0));
#237=DIRECTION('',(1.0,0.0,0.0));
#238=SURFACE_STYLE_FILL_AREA(#345);
#239=ORIENTED_EDGE('',*,*,#341,.T.);
#240=ORIENTED_EDGE('',*,*,#346,.T.);
#241=ORIENTED_EDGE('',*,*,#321,.T.);
#242=ORIENTED_EDGE('',*,*,#343,.T.);
#243=ORIENTED_EDGE('',*,*,#347,.F.);
#244=CARTESIAN_POINT('',(0.0,-392.5,470.0));
#245=DIRECTION('',(0.0,-1.0,0.0));
#246=DIRECTION('',(1.0,0.0,0.0));
#247=SURFACE_STYLE_FILL_AREA(#348);
#248=ORIENTED_EDGE('',*,*,#336,.T.);
#249=ORIENTED_EDGE('',*,*,#349,.F.);
#250=ORIENTED_EDGE('',*,*,#338,.T.);
#251=ORIENTED_EDGE('',*,*,#316,.F.);
#252=ORIENTED_EDGE('',*,*,#350,.F.);
#253=CARTESIAN_POINT('',(0.0,-392.5,470.0));
#254=DIRECTION('',(0.0,-1.0,0.0));
#255=DIRECTION('',(1.0,0.0,0.0));
#256=SURFACE_STYLE_FILL_AREA(#351);
#257=ORIENTED_EDGE('',*,*,#347,.T.);
#258=ORIENTED_EDGE('',*,*,#342,.T.);
#259=ORIENTED_EDGE('',*,*,#339,.T.);
#260=ORIENTED_EDGE('',*,*,#349,.T.);
#261=CARTESIAN_POINT('',(0.0,-470.0,470.0));
#262=DIRECTION('',(0.0,-1.0,0.0));
#263=DIRECTION('',(1.0,0.0,0.0));
#264=SURFACE_STYLE_FILL_AREA(#352);
#265=ORIENTED_EDGE('',*,*,#319,.T.);
#266=ORIENTED_EDGE('',*,*,#332,.T.);
#267=ORIENTED_EDGE('',*,*,#353,.T.);
#268=ORIENTED_EDGE('',*,*,#322,.T.);
#269=ORIENTED_EDGE('',*,*,#346,.F.);
#270=ORIENTED_EDGE('',*,*,#344,.F.);
#271=CARTESIAN_POINT('',(-4.60606219047253E-015,-315.0,155.0));
#272=DIRECTION('',(1.0,0.0,0.0));
#273=DIRECTION('',(0.0,1.0,0.0));
#274=SURFACE_STYLE_FILL_AREA(#354);
#275=ORIENTED_EDGE('',*,*,#312,.T.);
#276=ORIENTED_EDGE('',*,*,#337,.T.);
#277=ORIENTED_EDGE('',*,*,#350,.T.);
#278=ORIENTED_EDGE('',*,*,#315,.T.);
#279=ORIENTED_EDGE('',*,*,#355,.T.);
#280=ORIENTED_EDGE('',*,*,#329,.T.);
#281=CARTESIAN_POINT('',(1.19360914709543E-013,-315.0,155.0));
#282=DIRECTION('',(1.0,0.0,0.0));
#283=DIRECTION('',(0.0,1.0,0.0));
#284=SURFACE_STYLE_FILL_AREA(#356);
#285=ORIENTED_EDGE('',*,*,#331,.T.);
#286=ORIENTED_EDGE('',*,*,#357,.F.);
#287=ORIENTED_EDGE('',*,*,#333,.T.);
#288=ORIENTED_EDGE('',*,*,#323,.F.);
#289=ORIENTED_EDGE('',*,*,#353,.F.);
#290=CARTESIAN_POINT('',(0.0,0.0,77.5));
#291=DIRECTION('',(0.0,0.0,1.0));
#292=DIRECTION('',(1.0,0.0,0.0));
#293=SURFACE_STYLE_FILL_AREA(#358);
#294=ORIENTED_EDGE('',*,*,#326,.T.);
#295=ORIENTED_EDGE('',*,*,#355,.F.);
#296=ORIENTED_EDGE('',*,*,#314,.F.);
#297=ORIENTED_EDGE('',*,*,#328,.T.);
#298=ORIENTED_EDGE('',*,*,#359,.F.);
#299=CARTESIAN_POINT('',(0.0,0.0,77.5));
#300=DIRECTION('',(0.0,0.0,1.0));
#301=DIRECTION('',(1.0,0.0,0.0));
#302=SURFACE_STYLE_FILL_AREA(#360);
#303=ORIENTED_EDGE('',*,*,#334,.T.);
#304=ORIENTED_EDGE('',*,*,#357,.T.);
#305=ORIENTED_EDGE('',*,*,#359,.T.);
#306=ORIENTED_EDGE('',*,*,#327,.T.);
#307=CARTESIAN_POINT('',(0.0,0.0,0.0));
#308=DIRECTION('',(0.0,0.0,-1.0));
#309=DIRECTION('',(-1.0,0.0,0.0));
#310=SURFACE_STYLE_FILL_AREA(#361);
#311=FILL_AREA_STYLE('',(#362));
#312=EDGE_CURVE('',#363,#364,#365,.T.);
#313=EDGE_CURVE('',#363,#366,#367,.T.);
#314=EDGE_CURVE('',#366,#368,#369,.T.);
#315=EDGE_CURVE('',#370,#368,#371,.T.);
#316=EDGE_CURVE('',#370,#372,#373,.T.);
#317=EDGE_CURVE('',#372,#364,#374,.T.);
#318=FILL_AREA_STYLE('',(#375));
#319=EDGE_CURVE('',#376,#377,#378,.T.);
#320=EDGE_CURVE('',#379,#376,#380,.T.);
#321=EDGE_CURVE('',#381,#379,#382,.T.);
#322=EDGE_CURVE('',#383,#381,#384,.T.);
#323=EDGE_CURVE('',#383,#385,#386,.T.);
#324=EDGE_CURVE('',#385,#377,#387,.T.);
#325=FILL_AREA_STYLE('',(#388));
#326=EDGE_CURVE('',#389,#390,#391,.T.);
#327=EDGE_CURVE('',#392,#389,#393,.T.);
#328=EDGE_CURVE('',#366,#392,#394,.T.);
#329=EDGE_CURVE('',#390,#363,#395,.T.);
#330=FILL_AREA_STYLE('',(#396));
#331=EDGE_CURVE('',#397,#398,#399,.T.);
#332=EDGE_CURVE('',#377,#397,#400,.T.);
#333=EDGE_CURVE('',#401,#385,#402,.T.);
#334=EDGE_CURVE('',#398,#401,#403,.T.);
#335=FILL_AREA_STYLE('',(#404));
#336=EDGE_CURVE('',#405,#406,#407,.T.);
#337=EDGE_CURVE('',#364,#405,#408,.T.);
#338=EDGE_CURVE('',#409,#372,#410,.T.);
#339=EDGE_CURVE('',#406,#409,#411,.T.);
#340=FILL_AREA_STYLE('',(#412));
#341=EDGE_CURVE('',#413,#414,#415,.T.);
#342=EDGE_CURVE('',#416,#413,#417,.T.);
#343=EDGE_CURVE('',#379,#416,#418,.T.);
#344=EDGE_CURVE('',#376,#414,#419,.T.);
#345=FILL_AREA_STYLE('',(#420));
#346=EDGE_CURVE('',#414,#381,#421,.T.);
#347=EDGE_CURVE('',#413,#416,#422,.T.);
#348=FILL_AREA_STYLE('',(#423));
#349=EDGE_CURVE('',#409,#406,#424,.T.);
#350=EDGE_CURVE('',#405,#370,#425,.T.);
#351=FILL_AREA_STYLE('',(#426));
#352=FILL_AREA_STYLE('',(#427));
#353=EDGE_CURVE('',#397,#383,#428,.T.);
#354=FILL_AREA_STYLE('',(#429));
#355=EDGE_CURVE('',#368,#390,#430,.T.);
#356=FILL_AREA_STYLE('',(#431));
#357=EDGE_CURVE('',#401,#398,#432,.T.);
#358=FILL_AREA_STYLE('',(#433));
#359=EDGE_CURVE('',#389,#392,#434,.T.);
#360=FILL_AREA_STYLE('',(#435));
#361=FILL_AREA_STYLE('',(#436));
#362=FILL_AREA_STYLE_COLOUR('',#437);
#363=VERTEX_POINT('',#438);
#364=VERTEX_POINT('',#439);
#365=CIRCLE('',#440,472.5);
#366=VERTEX_POINT('',#441);
#367=CIRCLE('',#442,157.5);
#368=VERTEX_POINT('',#443);
#369=CIRCLE('',#444,157.5);
#370=VERTEX_POINT('',#445);
#371=CIRCLE('',#446,157.5);
#372=VERTEX_POINT('',#447);
#373=CIRCLE('',#448,157.5);
#374=CIRCLE('',#449,157.5);
#375=FILL_AREA_STYLE_COLOUR('',#450);
#376=VERTEX_POINT('',#451);
#377=VERTEX_POINT('',#452);
#378=CIRCLE('',#453,453.8);
#379=VERTEX_POINT('',#454);
#380=CIRCLE('',#455,138.8);
#381=VERTEX_POINT('',#456);
#382=CIRCLE('',#457,138.8);
#383=VERTEX_POINT('',#458);
#384=CIRCLE('',#459,176.2);
#385=VERTEX_POINT('',#460);
#386=CIRCLE('',#461,138.8);
#387=CIRCLE('',#462,138.8);
#388=FILL_AREA_STYLE_COLOUR('',#463);
#389=VERTEX_POINT('',#464);
#390=VERTEX_POINT('',#465);
#391=LINE('',#466,#467);
#392=VERTEX_POINT('',#468);
#393=CIRCLE('',#469,157.5);
#394=LINE('',#470,#471);
#395=CIRCLE('',#472,157.5);
#396=FILL_AREA_STYLE_COLOUR('',#473);
#397=VERTEX_POINT('',#474);
#398=VERTEX_POINT('',#475);
#399=LINE('',#476,#477);
#400=CIRCLE('',#478,138.8);
#401=VERTEX_POINT('',#479);
#402=LINE('',#480,#481);
#403=CIRCLE('',#482,138.8);
#404=FILL_AREA_STYLE_COLOUR('',#483);
#405=VERTEX_POINT('',#484);
#406=VERTEX_POINT('',#485);
#407=LINE('',#486,#487);
#408=CIRCLE('',#488,157.5);
#409=VERTEX_POINT('',#489);
#410=LINE('',#490,#491);
#411=CIRCLE('',#492,157.5);
#412=FILL_AREA_STYLE_COLOUR('',#493);
#413=VERTEX_POINT('',#494);
#414=VERTEX_POINT('',#495);
#415=LINE('',#496,#497);
#416=VERTEX_POINT('',#498);
#417=CIRCLE('',#499,138.8);
#418=LINE('',#500,#501);
#419=CIRCLE('',#502,138.8);
#420=FILL_AREA_STYLE_COLOUR('',#503);
#421=CIRCLE('',#504,138.8);
#422=CIRCLE('',#505,138.8);
#423=FILL_AREA_STYLE_COLOUR('',#506);
#424=CIRCLE('',#507,157.5);
#425=CIRCLE('',#508,157.5);
#426=FILL_AREA_STYLE_COLOUR('',#509);
#427=FILL_AREA_STYLE_COLOUR('',#510);
#428=CIRCLE('',#511,138.8);
#429=FILL_AREA_STYLE_COLOUR('',#512);
#430=CIRCLE('',#513,157.5);
#431=FILL_AREA_STYLE_COLOUR('',#514);
#432=CIRCLE('',#515,138.8);
#433=FILL_AREA_STYLE_COLOUR('',#516);
#434=CIRCLE('',#517,157.5);
#435=FILL_AREA_STYLE_COLOUR('',#518);
#436=FILL_AREA_STYLE_COLOUR('',#519);
#437=COLOUR_RGB('',0.24705882370472,0.24705882370472,0.24705882370472);
#438=CARTESIAN_POINT('',(1.38648464782246E-013,157.5,155.0));
#439=CARTESIAN_POINT('',(-5.16352186486965E-017,-315.0,627.5));
#440=AXIS2_PLACEMENT_3D('',#520,#521,#522);
#441=CARTESIAN_POINT('',(-157.5,1.92875500727024E-014,155.0));
#442=AXIS2_PLACEMENT_3D('',#523,#524,#525);
#443=CARTESIAN_POINT('',(1.38648464782246E-013,-157.5,155.0));
#444=AXIS2_PLACEMENT_3D('',#526,#527,#528);
#445=CARTESIAN_POINT('',(1.38648464782246E-013,-315.0,312.5));
#446=AXIS2_PLACEMENT_3D('',#529,#530,#531);
#447=CARTESIAN_POINT('',(-157.5,-315.0,470.0));
#448=AXIS2_PLACEMENT_3D('',#532,#533,#534);
#449=AXIS2_PLACEMENT_3D('',#535,#536,#537);
#450=COLOUR_RGB('',0.24705882370472,0.24705882370472,0.24705882370472);
#451=CARTESIAN_POINT('',(-2.3370590800735E-017,-315.0,608.8));
#452=CARTESIAN_POINT('',(1.23914740005821E-014,138.8,155.0));
#453=AXIS2_PLACEMENT_3D('',#538,#539,#540);
#454=CARTESIAN_POINT('',(-138.8,-315.0,470.0));
#455=AXIS2_PLACEMENT_3D('',#541,#542,#543);
#456=CARTESIAN_POINT('',(1.23914740005821E-014,-315.0,331.2));
#457=AXIS2_PLACEMENT_3D('',#544,#545,#546);
#458=CARTESIAN_POINT('',(7.78541181010953E-015,-138.8,155.0));
#459=AXIS2_PLACEMENT_3D('',#547,#548,#549);
#460=CARTESIAN_POINT('',(-138.8,1.69975361910546E-014,155.0));
#461=AXIS2_PLACEMENT_3D('',#550,#551,#552);
#462=AXIS2_PLACEMENT_3D('',#553,#554,#555);
#463=COLOUR_RGB('',0.24705882370472,0.24705882370472,0.24705882370472);
#464=CARTESIAN_POINT('',(157.5,0.0,0.0));
#465=CARTESIAN_POINT('',(157.5,0.0,155.0));
#466=CARTESIAN_POINT('',(157.5,-1.92875500727024E-014,77.5));
#467=VECTOR('',#556,1.0);
#468=CARTESIAN_POINT('',(-157.5,1.92875500727024E-014,0.0));
#469=AXIS2_PLACEMENT_3D('',#557,#558,#559);
#470=CARTESIAN_POINT('',(-157.5,1.92875500727024E-014,77.5));
#471=VECTOR('',#560,1.0);
#472=AXIS2_PLACEMENT_3D('',#561,#562,#563);
#473=COLOUR_RGB('',0.24705882370472,0.24705882370472,0.24705882370472);
#474=CARTESIAN_POINT('',(138.8,-1.69975361910546E-014,155.0));
#475=CARTESIAN_POINT('',(138.8,0.0,0.0));
#476=CARTESIAN_POINT('',(138.8,-1.69975361910546E-014,77.5));
#477=VECTOR('',#564,1.0);
#478=AXIS2_PLACEMENT_3D('',#565,#566,#567);
#479=CARTESIAN_POINT('',(-138.8,1.69975361910546E-014,0.0));
#480=CARTESIAN_POINT('',(-138.8,1.69975361910546E-014,77.5));
#481=VECTOR('',#568,1.0);
#482=AXIS2_PLACEMENT_3D('',#569,#570,#571);
#483=COLOUR_RGB('',0.24705882370472,0.24705882370472,0.24705882370472);
#484=CARTESIAN_POINT('',(157.5,-315.0,470.0));
#485=CARTESIAN_POINT('',(157.5,-470.0,470.0));
#486=CARTESIAN_POINT('',(157.5,-392.5,470.0));
#487=VECTOR('',#572,1.0);
#488=AXIS2_PLACEMENT_3D('',#573,#574,#575);
#489=CARTESIAN_POINT('',(-157.5,-470.0,470.0));
#490=CARTESIAN_POINT('',(-157.5,-392.5,470.0));
#491=VECTOR('',#576,1.0);
#492=AXIS2_PLACEMENT_3D('',#577,#578,#579);
#493=COLOUR_RGB('',0.24705882370472,0.24705882370472,0.24705882370472);
#494=CARTESIAN_POINT('',(138.8,-470.0,470.0));
#495=CARTESIAN_POINT('',(138.8,-315.0,470.0));
#496=CARTESIAN_POINT('',(138.8,-392.5,470.0));
#497=VECTOR('',#580,1.0);
#498=CARTESIAN_POINT('',(-138.8,-470.0,470.0));
#499=AXIS2_PLACEMENT_3D('',#581,#582,#583);
#500=CARTESIAN_POINT('',(-138.8,-392.5,470.0));
#501=VECTOR('',#584,1.0);
#502=AXIS2_PLACEMENT_3D('',#585,#586,#587);
#503=COLOUR_RGB('',0.24705882370472,0.24705882370472,0.24705882370472);
#504=AXIS2_PLACEMENT_3D('',#588,#589,#590);
#505=AXIS2_PLACEMENT_3D('',#591,#592,#593);
#506=COLOUR_RGB('',0.24705882370472,0.24705882370472,0.24705882370472);
#507=AXIS2_PLACEMENT_3D('',#594,#595,#596);
#508=AXIS2_PLACEMENT_3D('',#597,#598,#599);
#509=COLOUR_RGB('',0.24705882370472,0.24705882370472,0.24705882370472);
#510=COLOUR_RGB('',0.24705882370472,0.24705882370472,0.24705882370472);
#511=AXIS2_PLACEMENT_3D('',#600,#601,#602);
#512=COLOUR_RGB('',0.24705882370472,0.24705882370472,0.24705882370472);
#513=AXIS2_PLACEMENT_3D('',#603,#604,#605);
#514=COLOUR_RGB('',0.24705882370472,0.24705882370472,0.24705882370472);
#515=AXIS2_PLACEMENT_3D('',#606,#607,#608);
#516=COLOUR_RGB('',0.24705882370472,0.24705882370472,0.24705882370472);
#517=AXIS2_PLACEMENT_3D('',#609,#610,#611);
#518=COLOUR_RGB('',0.24705882370472,0.24705882370472,0.24705882370472);
#519=COLOUR_RGB('',0.24705882370472,0.24705882370472,0.24705882370472);
#520=CARTESIAN_POINT('',(1.38648464782246E-013,-315.0,155.0));
#521=DIRECTION('',(1.0,0.0,0.0));
#522=DIRECTION('',(0.0,0.0,-1.0));
#523=CARTESIAN_POINT('',(0.0,0.0,155.0));
#524=DIRECTION('',(0.0,0.0,1.0));
#525=DIRECTION('',(1.0,0.0,0.0));
#526=CARTESIAN_POINT('',(0.0,0.0,155.0));
#527=DIRECTION('',(0.0,0.0,1.0));
#528=DIRECTION('',(1.0,0.0,0.0));
#529=CARTESIAN_POINT('',(1.38648464782246E-013,-315.0,155.0));
#530=DIRECTION('',(-1.0,-0.0,-0.0));
#531=DIRECTION('',(0.0,0.0,-1.0));
#532=CARTESIAN_POINT('',(1.19360914709543E-013,-315.0,470.0));
#533=DIRECTION('',(0.0,1.0,-6.12303176911189E-017));
#534=DIRECTION('',(-7.57847077520911E-016,6.12303176911189E-017,1.0));
#535=CARTESIAN_POINT('',(1.19360914709543E-013,-315.0,470.0));
#536=DIRECTION('',(0.0,1.0,-6.12303176911189E-017));
#537=DIRECTION('',(-7.57847077520911E-016,6.12303176911189E-017,1.0));
#538=CARTESIAN_POINT('',(1.23914740005821E-014,-315.0,155.0));
#539=DIRECTION('',(-1.0,-0.0,-0.0));
#540=DIRECTION('',(0.0,0.0,-1.0));
#541=CARTESIAN_POINT('',(-4.60606219047253E-015,-315.0,470.0));
#542=DIRECTION('',(-0.0,1.0,-6.12303176911189E-017));
#543=DIRECTION('',(0.0,6.12303176911189E-017,1.0));
#544=CARTESIAN_POINT('',(-4.60606219047253E-015,-315.0,470.0));
#545=DIRECTION('',(-0.0,1.0,-6.12303176911189E-017));
#546=DIRECTION('',(0.0,6.12303176911189E-017,1.0));
#547=CARTESIAN_POINT('',(1.23914740005821E-014,-315.0,155.0));
#548=DIRECTION('',(1.0,0.0,0.0));
#549=DIRECTION('',(0.0,0.0,-1.0));
#550=CARTESIAN_POINT('',(0.0,0.0,155.0));
#551=DIRECTION('',(0.0,0.0,-1.0));
#552=DIRECTION('',(1.0,0.0,0.0));
#553=CARTESIAN_POINT('',(0.0,0.0,155.0));
#554=DIRECTION('',(0.0,0.0,-1.0));
#555=DIRECTION('',(1.0,0.0,0.0));
#556=DIRECTION('',(0.0,0.0,1.0));
#557=CARTESIAN_POINT('',(0.0,0.0,0.0));
#558=DIRECTION('',(0.0,0.0,-1.0));
#559=DIRECTION('',(1.0,0.0,0.0));
#560=DIRECTION('',(-0.0,-0.0,-1.0));
#561=CARTESIAN_POINT('',(0.0,0.0,155.0));
#562=DIRECTION('',(0.0,0.0,1.0));
#563=DIRECTION('',(1.0,0.0,0.0));
#564=DIRECTION('',(-0.0,0.0,-1.0));
#565=CARTESIAN_POINT('',(0.0,0.0,155.0));
#566=DIRECTION('',(0.0,0.0,-1.0));
#567=DIRECTION('',(1.0,0.0,0.0));
#568=DIRECTION('',(-0.0,0.0,1.0));
#569=CARTESIAN_POINT('',(0.0,0.0,0.0));
#570=DIRECTION('',(0.0,-0.0,1.0));
#571=DIRECTION('',(1.0,0.0,0.0));
#572=DIRECTION('',(0.0,-1.0,0.0));
#573=CARTESIAN_POINT('',(1.19360914709543E-013,-315.0,470.0));
#574=DIRECTION('',(0.0,1.0,-6.12303176911189E-017));
#575=DIRECTION('',(-7.57847077520911E-016,6.12303176911189E-017,1.0));
#576=DIRECTION('',(-0.0,1.0,-0.0));
#577=CARTESIAN_POINT('',(0.0,-470.0,470.0));
#578=DIRECTION('',(0.0,-1.0,0.0));
#579=DIRECTION('',(1.0,0.0,0.0));
#580=DIRECTION('',(-0.0,1.0,-0.0));
#581=CARTESIAN_POINT('',(0.0,-470.0,470.0));
#582=DIRECTION('',(-0.0,1.0,0.0));
#583=DIRECTION('',(1.0,0.0,0.0));
#584=DIRECTION('',(-0.0,-1.0,0.0));
#585=CARTESIAN_POINT('',(-4.60606219047253E-015,-315.0,470.0));
#586=DIRECTION('',(-0.0,1.0,-6.12303176911189E-017));
#587=DIRECTION('',(0.0,6.12303176911189E-017,1.0));
#588=CARTESIAN_POINT('',(-4.60606219047253E-015,-315.0,470.0));
#589=DIRECTION('',(-0.0,1.0,-6.12303176911189E-017));
#590=DIRECTION('',(0.0,6.12303176911189E-017,1.0));
#591=CARTESIAN_POINT('',(0.0,-470.0,470.0));
#592=DIRECTION('',(-0.0,1.0,0.0));
#593=DIRECTION('',(1.0,0.0,0.0));
#594=CARTESIAN_POINT('',(0.0,-470.0,470.0));
#595=DIRECTION('',(0.0,-1.0,0.0));
#596=DIRECTION('',(1.0,0.0,0.0));
#597=CARTESIAN_POINT('',(1.19360914709543E-013,-315.0,470.0));
#598=DIRECTION('',(0.0,1.0,-6.12303176911189E-017));
#599=DIRECTION('',(-7.57847077520911E-016,6.12303176911189E-017,1.0));
#600=CARTESIAN_POINT('',(0.0,0.0,155.0));
#601=DIRECTION('',(0.0,0.0,-1.0));
#602=DIRECTION('',(1.0,0.0,0.0));
#603=CARTESIAN_POINT('',(0.0,0.0,155.0));
#604=DIRECTION('',(0.0,0.0,1.0));
#605=DIRECTION('',(1.0,0.0,0.0));
#606=CARTESIAN_POINT('',(0.0,0.0,0.0));
#607=DIRECTION('',(0.0,-0.0,1.0));
#608=DIRECTION('',(1.0,0.0,0.0));
#609=CARTESIAN_POINT('',(0.0,0.0,0.0));
#610=DIRECTION('',(0.0,0.0,-1.0));
#611=DIRECTION('',(1.0,0.0,0.0));
ENDSEC;
END-ISO-10303-21;
